ISO-10303-21;
HEADER;
FILE_DESCRIPTION (( 'STEP AP203' ),
    '1' );
FILE_NAME ('Q-OZHWP-R2-25.4-355-M.STEP',
    '2020-12-22T09:18:46',
    ( '' ),
    ( '' ),
    'SwSTEP 2.0',
    'SolidWorks 2020',
    '' );
FILE_SCHEMA (( 'CONFIG_CONTROL_DESIGN' ));
ENDSEC;

DATA;
#1 = ORIENTED_EDGE ( 'NONE', *, *, #174, .T. ) ;
#2 = SECURITY_CLASSIFICATION ( '', '', #159 ) ;
#3 = CALENDAR_DATE ( 2020, 22, 12 ) ;
#4 = CARTESIAN_POINT ( 'NONE',  ( 0.000000000000000000, 0.000000000000000000, 0.000000000000000000 ) ) ;
#5 = LOCAL_TIME ( 17, 18, 46.00000000000000000, #17 ) ;
#6 = PERSON_AND_ORGANIZATION_ROLE ( 'design_owner' ) ;
#7 = CARTESIAN_POINT ( 'NONE',  ( -3.000000000000001776, 1.555301434917138433E-15, -12.69999999999999929 ) ) ;
#8 = PERSON_AND_ORGANIZATION ( #87, #120 ) ;
#9 = PRODUCT_DEFINITION_SHAPE ( 'NONE', 'NONE',  #36 ) ;
#10 = CC_DESIGN_APPROVAL ( #105, ( #70 ) ) ;
#11 = PRODUCT ( 'Q-OZHWP-R2-25.4-355-M', 'Q-OZHWP-R2-25.4-355-M', '', ( #149 ) ) ;
#12 = FACE_OUTER_BOUND ( 'NONE', #169, .T. ) ;
#13 = CALENDAR_DATE ( 2020, 22, 12 ) ;
#14 = EDGE_LOOP ( 'NONE', ( #114, #52 ) ) ;
#15 = EDGE_CURVE ( 'NONE', #27, #78, #96, .T. ) ;
#16 = CC_DESIGN_PERSON_AND_ORGANIZATION_ASSIGNMENT ( #126, #151, ( #70 ) ) ;
#17 = COORDINATED_UNIVERSAL_TIME_OFFSET ( 8, 0, .AHEAD. ) ;
#18 = PERSON_AND_ORGANIZATION ( #87, #120 ) ;
#19 = DATE_AND_TIME ( #3, #90 ) ;
#20 = CC_DESIGN_PERSON_AND_ORGANIZATION_ASSIGNMENT ( #21, #58, ( #2 ) ) ;
#21 = PERSON_AND_ORGANIZATION ( #87, #120 ) ;
#22 = EDGE_CURVE ( 'NONE', #40, #83, #102, .T. ) ;
#23 = AXIS2_PLACEMENT_3D ( 'NONE', #175, #48, #71 ) ;
#24 = LOCAL_TIME ( 17, 18, 46.00000000000000000, #132 ) ;
#25 = UNCERTAINTY_MEASURE_WITH_UNIT (LENGTH_MEASURE( 1.000000000000000082E-05 ), #156, 'distance_accuracy_value', 'NONE');
#26 = DIRECTION ( 'NONE',  ( -1.000000000000000000, -0.000000000000000000, -0.000000000000000000 ) ) ;
#27 = VERTEX_POINT ( 'NONE', #104 ) ;
#28 = CARTESIAN_POINT ( 'NONE',  ( -3.000000000000000000, 0.000000000000000000, 0.000000000000000000 ) ) ;
#29 = CARTESIAN_POINT ( 'NONE',  ( 3.000000000000001776, 0.000000000000000000, 0.000000000000000000 ) ) ;
#30 = DIRECTION ( 'NONE',  ( 0.000000000000000000, 0.000000000000000000, 1.000000000000000000 ) ) ;
#31 = PERSON_AND_ORGANIZATION ( #87, #120 ) ;
#32 = AXIS2_PLACEMENT_3D ( 'NONE', #171, #117, #54 ) ;
#33 = APPROVAL_DATE_TIME ( #45, #105 ) ;
#34 = APPROVAL_ROLE ( '' ) ;
#35 = ORIENTED_EDGE ( 'NONE', *, *, #115, .F. ) ;
#36 = PRODUCT_DEFINITION ( 'UNKNOWN', '', #70, #142 ) ;
#37 = AXIS2_PLACEMENT_3D ( 'NONE', #29, #167, #51 ) ;
#38 =( NAMED_UNIT ( * ) SI_UNIT ( $, .STERADIAN. ) SOLID_ANGLE_UNIT ( ) );
#39 = DATE_AND_TIME ( #103, #5 ) ;
#40 = VERTEX_POINT ( 'NONE', #68 ) ;
#41 = CYLINDRICAL_SURFACE ( 'NONE', #46, 12.69999999999999929 ) ;
#42 = CIRCLE ( 'NONE', #37, 12.69999999999999929 ) ;
#43 = CC_DESIGN_APPROVAL ( #122, ( #36 ) ) ;
#44 = APPLICATION_PROTOCOL_DEFINITION ( 'international standard', 'config_control_design', 1994, #77 ) ;
#45 = DATE_AND_TIME ( #13, #24 ) ;
#46 = AXIS2_PLACEMENT_3D ( 'NONE', #28, #116, #30 ) ;
#47 = EDGE_CURVE ( 'NONE', #40, #27, #42, .T. ) ;
#48 = DIRECTION ( 'NONE',  ( -1.000000000000000000, -0.000000000000000000, -0.000000000000000000 ) ) ;
#49 = CALENDAR_DATE ( 2020, 22, 12 ) ;
#50 = CARTESIAN_POINT ( 'NONE',  ( -3.000000000000000888, 12.69999999999999929, 0.000000000000000000 ) ) ;
#51 = DIRECTION ( 'NONE',  ( 0.000000000000000000, 0.000000000000000000, 1.000000000000000000 ) ) ;
#52 = ORIENTED_EDGE ( 'NONE', *, *, #47, .F. ) ;
#53 = APPLICATION_PROTOCOL_DEFINITION ( 'international standard', 'config_control_design', 1994, #165 ) ;
#54 = DIRECTION ( 'NONE',  ( 0.000000000000000000, 0.000000000000000000, 1.000000000000000000 ) ) ;
#55 = DIRECTION ( 'NONE',  ( 0.000000000000000000, 0.000000000000000000, 1.000000000000000000 ) ) ;
#56 = PLANE ( 'NONE',  #93 ) ;
#57 = CC_DESIGN_PERSON_AND_ORGANIZATION_ASSIGNMENT ( #119, #100, ( #36 ) ) ;
#58 = PERSON_AND_ORGANIZATION_ROLE ( 'classification_officer' ) ;
#59 = SHAPE_DEFINITION_REPRESENTATION ( #9, #76 ) ;
#60 = ORIENTED_EDGE ( 'NONE', *, *, #22, .T. ) ;
#61 = CLOSED_SHELL ( 'NONE', ( #79, #154, #109, #94 ) ) ;
#62 = DIRECTION ( 'NONE',  ( -1.000000000000000000, 0.000000000000000000, -0.000000000000000000 ) ) ;
#63 = CARTESIAN_POINT ( 'NONE',  ( -3.000000000000000000, 0.000000000000000000, 12.69999999999999929 ) ) ;
#64 = CC_DESIGN_SECURITY_CLASSIFICATION ( #2, ( #70 ) ) ;
#65 = FACE_OUTER_BOUND ( 'NONE', #14, .T. ) ;
#66 = ORIENTED_EDGE ( 'NONE', *, *, #22, .F. ) ;
#67 = CC_DESIGN_DATE_AND_TIME_ASSIGNMENT ( #75, #162, ( #2 ) ) ;
#68 = CARTESIAN_POINT ( 'NONE',  ( 3.000000000000001776, 1.555301434917138433E-15, -12.69999999999999929 ) ) ;
#69 = PERSON_AND_ORGANIZATION ( #87, #120 ) ;
#70 = PRODUCT_DEFINITION_FORMATION_WITH_SPECIFIED_SOURCE ( 'ANY', '', #11, .NOT_KNOWN. ) ;
#71 = DIRECTION ( 'NONE',  ( 0.000000000000000000, 0.000000000000000000, 1.000000000000000000 ) ) ;
#72 = APPROVAL_ROLE ( '' ) ;
#73 = PERSON_AND_ORGANIZATION_ROLE ( 'design_supplier' ) ;
#74 = APPROVAL ( #124, 'UNSPECIFIED' ) ;
#75 = DATE_AND_TIME ( #49, #152 ) ;
#76 = ADVANCED_BREP_SHAPE_REPRESENTATION ( 'Q-OZHWP-R2-25.4-355-M', ( #111, #146 ), #86 ) ;
#77 = APPLICATION_CONTEXT ( 'configuration controlled 3d designs of mechanical parts and assemblies' ) ;
#78 = VERTEX_POINT ( 'NONE', #140 ) ;
#79 = ADVANCED_FACE ( 'NONE', ( #12 ), #128, .T. ) ;
#80 = LOCAL_TIME ( 17, 18, 46.00000000000000000, #136 ) ;
#81 = ORIENTED_EDGE ( 'NONE', *, *, #47, .T. ) ;
#82 = ORIENTED_EDGE ( 'NONE', *, *, #15, .T. ) ;
#83 = VERTEX_POINT ( 'NONE', #7 ) ;
#84 = CARTESIAN_POINT ( 'NONE',  ( 3.000000000000000888, 12.69999999999999929, 0.000000000000000000 ) ) ;
#85 = CIRCLE ( 'NONE', #155, 12.69999999999999929 ) ;
#86 =( GEOMETRIC_REPRESENTATION_CONTEXT ( 3 ) GLOBAL_UNCERTAINTY_ASSIGNED_CONTEXT ( ( #25 ) ) GLOBAL_UNIT_ASSIGNED_CONTEXT ( ( #156, #131, #38 ) ) REPRESENTATION_CONTEXT ( 'NONE', 'WORKASPACE' ) );
#87 = PERSON ( 'UNSPECIFIED', 'UNSPECIFIED', 'UNSPECIFIED', ('UNSPECIFIED'), ('UNSPECIFIED'), ('UNSPECIFIED') ) ;
#88 = APPROVAL_STATUS ( 'not_yet_approved' ) ;
#89 = FACE_OUTER_BOUND ( 'NONE', #110, .T. ) ;
#90 = LOCAL_TIME ( 17, 18, 46.00000000000000000, #157 ) ;
#91 = DATE_AND_TIME ( #133, #80 ) ;
#92 = AXIS2_PLACEMENT_3D ( 'NONE', #50, #127, #101 ) ;
#93 = AXIS2_PLACEMENT_3D ( 'NONE', #84, #62, #145 ) ;
#94 = ADVANCED_FACE ( 'NONE', ( #125 ), #161, .F. ) ;
#95 = DIRECTION ( 'NONE',  ( 1.000000000000000000, 0.000000000000000000, 0.000000000000000000 ) ) ;
#96 = LINE ( 'NONE', #63, #112 ) ;
#97 = DIRECTION ( 'NONE',  ( -1.000000000000000000, -0.000000000000000000, -0.000000000000000000 ) ) ;
#98 = ORIENTED_EDGE ( 'NONE', *, *, #174, .F. ) ;
#99 = DIRECTION ( 'NONE',  ( 0.000000000000000000, 0.000000000000000000, 1.000000000000000000 ) ) ;
#100 = PERSON_AND_ORGANIZATION_ROLE ( 'creator' ) ;
#101 = DIRECTION ( 'NONE',  ( 0.000000000000000000, 0.000000000000000000, -1.000000000000000000 ) ) ;
#102 = LINE ( 'NONE', #147, #130 ) ;
#103 = CALENDAR_DATE ( 2020, 22, 12 ) ;
#104 = CARTESIAN_POINT ( 'NONE',  ( 3.000000000000001776, 0.000000000000000000, 12.69999999999999929 ) ) ;
#105 = APPROVAL ( #143, 'UNSPECIFIED' ) ;
#106 = COORDINATED_UNIVERSAL_TIME_OFFSET ( 8, 0, .AHEAD. ) ;
#107 = CIRCLE ( 'NONE', #138, 12.69999999999999929 ) ;
#108 = APPROVAL_PERSON_ORGANIZATION ( #69, #105, #72 ) ;
#109 = ADVANCED_FACE ( 'NONE', ( #65 ), #56, .F. ) ;
#110 = EDGE_LOOP ( 'NONE', ( #66, #81, #82, #98 ) ) ;
#111 = MANIFOLD_SOLID_BREP ( 'Ðý×', #61 ) ;
#112 = VECTOR ( 'NONE', #123, 1000.000000000000000 ) ;
#113 = APPROVAL_ROLE ( '' ) ;
#114 = ORIENTED_EDGE ( 'NONE', *, *, #141, .F. ) ;
#115 = EDGE_CURVE ( 'NONE', #78, #83, #134, .T. ) ;
#116 = DIRECTION ( 'NONE',  ( -1.000000000000000000, -0.000000000000000000, -0.000000000000000000 ) ) ;
#117 = DIRECTION ( 'NONE',  ( -1.000000000000000000, -0.000000000000000000, -0.000000000000000000 ) ) ;
#118 = ORIENTED_EDGE ( 'NONE', *, *, #141, .T. ) ;
#119 = PERSON_AND_ORGANIZATION ( #87, #120 ) ;
#120 = ORGANIZATION ( 'UNSPECIFIED', 'UNSPECIFIED', '' ) ;
#121 = CARTESIAN_POINT ( 'NONE',  ( 3.000000000000001776, 0.000000000000000000, 0.000000000000000000 ) ) ;
#122 = APPROVAL ( #88, 'UNSPECIFIED' ) ;
#123 = DIRECTION ( 'NONE',  ( -1.000000000000000000, -0.000000000000000000, -0.000000000000000000 ) ) ;
#124 = APPROVAL_STATUS ( 'not_yet_approved' ) ;
#125 = FACE_OUTER_BOUND ( 'NONE', #166, .T. ) ;
#126 = PERSON_AND_ORGANIZATION ( #87, #120 ) ;
#127 = DIRECTION ( 'NONE',  ( 1.000000000000000000, 0.000000000000000000, 0.000000000000000000 ) ) ;
#128 = CYLINDRICAL_SURFACE ( 'NONE', #23, 12.69999999999999929 ) ;
#129 = CARTESIAN_POINT ( 'NONE',  ( -3.000000000000001776, 0.000000000000000000, 0.000000000000000000 ) ) ;
#130 = VECTOR ( 'NONE', #158, 1000.000000000000000 ) ;
#131 =( NAMED_UNIT ( * ) PLANE_ANGLE_UNIT ( ) SI_UNIT ( $, .RADIAN. ) );
#132 = COORDINATED_UNIVERSAL_TIME_OFFSET ( 8, 0, .AHEAD. ) ;
#133 = CALENDAR_DATE ( 2020, 22, 12 ) ;
#134 = CIRCLE ( 'NONE', #32, 12.69999999999999929 ) ;
#135 = CC_DESIGN_PERSON_AND_ORGANIZATION_ASSIGNMENT ( #163, #73, ( #70 ) ) ;
#136 = COORDINATED_UNIVERSAL_TIME_OFFSET ( 8, 0, .AHEAD. ) ;
#137 = ORIENTED_EDGE ( 'NONE', *, *, #115, .T. ) ;
#138 = AXIS2_PLACEMENT_3D ( 'NONE', #129, #97, #99 ) ;
#139 = CC_DESIGN_PERSON_AND_ORGANIZATION_ASSIGNMENT ( #18, #6, ( #11 ) ) ;
#140 = CARTESIAN_POINT ( 'NONE',  ( -3.000000000000001776, 0.000000000000000000, 12.69999999999999929 ) ) ;
#141 = EDGE_CURVE ( 'NONE', #27, #40, #85, .T. ) ;
#142 = DESIGN_CONTEXT ( 'detailed design', #165, 'design' ) ;
#143 = APPROVAL_STATUS ( 'not_yet_approved' ) ;
#144 = ORIENTED_EDGE ( 'NONE', *, *, #15, .F. ) ;
#145 = DIRECTION ( 'NONE',  ( -0.000000000000000000, 0.000000000000000000, 1.000000000000000000 ) ) ;
#146 = AXIS2_PLACEMENT_3D ( 'NONE', #4, #55, #95 ) ;
#147 = CARTESIAN_POINT ( 'NONE',  ( -3.000000000000000000, 1.555301434917138433E-15, -12.69999999999999929 ) ) ;
#148 = PRODUCT_RELATED_PRODUCT_CATEGORY ( 'detail', '', ( #11 ) ) ;
#149 = MECHANICAL_CONTEXT ( 'NONE', #77, 'mechanical' ) ;
#150 = APPROVAL_DATE_TIME ( #39, #122 ) ;
#151 = PERSON_AND_ORGANIZATION_ROLE ( 'creator' ) ;
#152 = LOCAL_TIME ( 17, 18, 46.00000000000000000, #106 ) ;
#153 = DATE_TIME_ROLE ( 'creation_date' ) ;
#154 = ADVANCED_FACE ( 'NONE', ( #89 ), #41, .T. ) ;
#155 = AXIS2_PLACEMENT_3D ( 'NONE', #121, #26, #170 ) ;
#156 =( LENGTH_UNIT ( ) NAMED_UNIT ( * ) SI_UNIT ( .MILLI., .METRE. ) );
#157 = COORDINATED_UNIVERSAL_TIME_OFFSET ( 8, 0, .AHEAD. ) ;
#158 = DIRECTION ( 'NONE',  ( -1.000000000000000000, -0.000000000000000000, -0.000000000000000000 ) ) ;
#159 = SECURITY_CLASSIFICATION_LEVEL ( 'unclassified' ) ;
#160 = CC_DESIGN_APPROVAL ( #74, ( #2 ) ) ;
#161 = PLANE ( 'NONE',  #92 ) ;
#162 = DATE_TIME_ROLE ( 'classification_date' ) ;
#163 = PERSON_AND_ORGANIZATION ( #87, #120 ) ;
#164 = APPROVAL_PERSON_ORGANIZATION ( #8, #74, #34 ) ;
#165 = APPLICATION_CONTEXT ( 'configuration controlled 3d designs of mechanical parts and assemblies' ) ;
#166 = EDGE_LOOP ( 'NONE', ( #137, #1 ) ) ;
#167 = DIRECTION ( 'NONE',  ( -1.000000000000000000, -0.000000000000000000, -0.000000000000000000 ) ) ;
#168 = APPROVAL_PERSON_ORGANIZATION ( #31, #122, #113 ) ;
#169 = EDGE_LOOP ( 'NONE', ( #118, #60, #35, #144 ) ) ;
#170 = DIRECTION ( 'NONE',  ( 0.000000000000000000, 0.000000000000000000, 1.000000000000000000 ) ) ;
#171 = CARTESIAN_POINT ( 'NONE',  ( -3.000000000000001776, 0.000000000000000000, 0.000000000000000000 ) ) ;
#172 = APPROVAL_DATE_TIME ( #91, #74 ) ;
#173 = CC_DESIGN_DATE_AND_TIME_ASSIGNMENT ( #19, #153, ( #36 ) ) ;
#174 = EDGE_CURVE ( 'NONE', #83, #78, #107, .T. ) ;
#175 = CARTESIAN_POINT ( 'NONE',  ( -3.000000000000000000, 0.000000000000000000, 0.000000000000000000 ) ) ;
ENDSEC;
END-ISO-10303-21;
